ISO-10303-21;
HEADER;
FILE_DESCRIPTION (( 'STEP AP214' ),
    '1' );
FILE_NAME ('Ïðîôèëü.STEP',
    '2025-10-24T12:02:13',
    ( '' ),
    ( '' ),
    'SwSTEP 2.0',
    'SolidWorks 2021',
    '' );
FILE_SCHEMA (( 'AUTOMOTIVE_DESIGN' ));
ENDSEC;

DATA;
#1 = EDGE_LOOP ( 'NONE', ( #164, #13, #168, #15 ) ) ;
#2 = DIRECTION ( 'NONE',  ( 0.000000000000000000, 0.000000000000000000, 1.000000000000000000 ) ) ;
#3 = CYLINDRICAL_SURFACE ( 'NONE', #19, 11.00000000000000000 ) ;
#4 = DIRECTION ( 'NONE',  ( 1.000000000000000000, 0.000000000000000000, -0.000000000000000000 ) ) ;
#5 = DIRECTION ( 'NONE',  ( -0.000000000000000000, -0.000000000000000000, -1.000000000000000000 ) ) ;
#6 = EDGE_CURVE ( 'NONE', #150, #209, #20, .T. ) ;
#7 = PRESENTATION_LAYER_ASSIGNMENT (  '', '', ( #78 ) ) ;
#8 = CARTESIAN_POINT ( 'NONE',  ( 0.000000000000000000, 0.000000000000000000, 0.000000000000000000 ) ) ;
#9 = PRODUCT ( 'Ïðîôèëü', 'Ïðîôèëü', '', ( #162 ) ) ;
#10 = DIRECTION ( 'NONE',  ( -0.000000000000000000, -0.000000000000000000, -1.000000000000000000 ) ) ;
#11 = DIRECTION ( 'NONE',  ( 1.000000000000000000, 0.000000000000000000, 0.000000000000000000 ) ) ;
#12 = EDGE_CURVE ( 'NONE', #120, #169, #182, .T. ) ;
#13 = ORIENTED_EDGE ( 'NONE', *, *, #12, .T. ) ;
#14 = AXIS2_PLACEMENT_3D ( 'NONE', #21, #73, #135 ) ;
#15 = ORIENTED_EDGE ( 'NONE', *, *, #66, .F. ) ;
#16 = EDGE_LOOP ( 'NONE', ( #58, #104 ) ) ;
#17 = ORIENTED_EDGE ( 'NONE', *, *, #204, .T. ) ;
#18 = AXIS2_PLACEMENT_3D ( 'NONE', #56, #153, #195 ) ;
#19 = AXIS2_PLACEMENT_3D ( 'NONE', #172, #139, #199 ) ;
#20 = LINE ( 'NONE', #70, #192 ) ;
#21 = CARTESIAN_POINT ( 'NONE',  ( 0.000000000000000000, 0.000000000000000000, 900.0000000000000000 ) ) ;
#22 = UNCERTAINTY_MEASURE_WITH_UNIT (LENGTH_MEASURE( 1.000000000000000082E-05 ), #116, 'distance_accuracy_value', 'NONE');
#23 = CYLINDRICAL_SURFACE ( 'NONE', #87, 14.00000000000000000 ) ;
#24 = DIRECTION ( 'NONE',  ( 0.000000000000000000, 0.000000000000000000, 1.000000000000000000 ) ) ;
#25 = CARTESIAN_POINT ( 'NONE',  ( -11.00000000000000000, 0.000000000000000000, 0.000000000000000000 ) ) ;
#26 = STYLED_ITEM ( 'NONE', ( #200 ), #166 ) ;
#27 = CARTESIAN_POINT ( 'NONE',  ( 0.000000000000000000, 0.000000000000000000, 0.000000000000000000 ) ) ;
#28 = APPLICATION_PROTOCOL_DEFINITION ( 'draft international standard', 'automotive_design', 1998, #34 ) ;
#29 =( LENGTH_UNIT ( ) NAMED_UNIT ( * ) SI_UNIT ( .MILLI., .METRE. ) );
#30 = PRESENTATION_LAYER_ASSIGNMENT (  '', '', ( #26 ) ) ;
#31 = APPLICATION_PROTOCOL_DEFINITION ( 'draft international standard', 'automotive_design', 1998, #179 ) ;
#32 = ORIENTED_EDGE ( 'NONE', *, *, #124, .T. ) ;
#33 = PLANE ( 'NONE',  #131 ) ;
#34 = APPLICATION_CONTEXT ( 'automotive_design' ) ;
#35 = CARTESIAN_POINT ( 'NONE',  ( 0.000000000000000000, 0.000000000000000000, 900.0000000000000000 ) ) ;
#36 = VERTEX_POINT ( 'NONE', #194 ) ;
#37 = AXIS2_PLACEMENT_3D ( 'NONE', #94, #161, #115 ) ;
#38 = ADVANCED_FACE ( 'NONE', ( #118, #178 ), #33, .T. ) ;
#39 = CIRCLE ( 'NONE', #141, 11.00000000000000000 ) ;
#40 = EDGE_CURVE ( 'NONE', #150, #86, #122, .T. ) ;
#41 = ORIENTED_EDGE ( 'NONE', *, *, #50, .F. ) ;
#42 = CARTESIAN_POINT ( 'NONE',  ( 0.000000000000000000, 0.000000000000000000, 900.0000000000000000 ) ) ;
#43 =( LENGTH_UNIT ( ) NAMED_UNIT ( * ) SI_UNIT ( .MILLI., .METRE. ) );
#44 = DIRECTION ( 'NONE',  ( 1.000000000000000000, 0.000000000000000000, 0.000000000000000000 ) ) ;
#45 = CIRCLE ( 'NONE', #52, 14.00000000000000000 ) ;
#46 = CARTESIAN_POINT ( 'NONE',  ( 11.00000000000000000, 1.347111479062088405E-15, 900.0000000000000000 ) ) ;
#47 = DIRECTION ( 'NONE',  ( -0.000000000000000000, -0.000000000000000000, -1.000000000000000000 ) ) ;
#48 = VECTOR ( 'NONE', #5, 1000.000000000000000 ) ;
#49 = ADVANCED_FACE ( 'NONE', ( #180 ), #133, .F. ) ;
#50 = EDGE_CURVE ( 'NONE', #152, #209, #93, .T. ) ;
#51 =( NAMED_UNIT ( * ) SI_UNIT ( $, .STERADIAN. ) SOLID_ANGLE_UNIT ( ) );
#52 = AXIS2_PLACEMENT_3D ( 'NONE', #187, #136, #44 ) ;
#53 =( GEOMETRIC_REPRESENTATION_CONTEXT ( 3 ) GLOBAL_UNCERTAINTY_ASSIGNED_CONTEXT ( ( #103 ) ) GLOBAL_UNIT_ASSIGNED_CONTEXT ( ( #43, #185, #156 ) ) REPRESENTATION_CONTEXT ( 'NONE', 'WORKASPACE' ) );
#54 = EDGE_LOOP ( 'NONE', ( #17, #119, #134, #212 ) ) ;
#55 = EDGE_LOOP ( 'NONE', ( #143, #32, #84, #101 ) ) ;
#56 = CARTESIAN_POINT ( 'NONE',  ( 0.000000000000000000, 0.000000000000000000, 900.0000000000000000 ) ) ;
#57 = VERTEX_POINT ( 'NONE', #25 ) ;
#58 = ORIENTED_EDGE ( 'NONE', *, *, #204, .F. ) ;
#59 = AXIS2_PLACEMENT_3D ( 'NONE', #27, #163, #11 ) ;
#60 = DIRECTION ( 'NONE',  ( 0.000000000000000000, 0.000000000000000000, 1.000000000000000000 ) ) ;
#61 = SURFACE_SIDE_STYLE ('',( #198 ) ) ;
#62 = FILL_AREA_STYLE ('',( #77 ) ) ;
#63 =( GEOMETRIC_REPRESENTATION_CONTEXT ( 3 ) GLOBAL_UNCERTAINTY_ASSIGNED_CONTEXT ( ( #22 ) ) GLOBAL_UNIT_ASSIGNED_CONTEXT ( ( #116, #206, #144 ) ) REPRESENTATION_CONTEXT ( 'NONE', 'WORKASPACE' ) );
#64 = CARTESIAN_POINT ( 'NONE',  ( 0.000000000000000000, 0.000000000000000000, 0.000000000000000000 ) ) ;
#65 = ADVANCED_FACE ( 'NONE', ( #92 ), #3, .F. ) ;
#66 = EDGE_CURVE ( 'NONE', #36, #57, #39, .T. ) ;
#67 = PRESENTATION_STYLE_ASSIGNMENT (( #190 ) ) ;
#68 = CLOSED_SHELL ( 'NONE', ( #65, #145, #38, #99, #80, #49 ) ) ;
#69 = VECTOR ( 'NONE', #10, 1000.000000000000000 ) ;
#70 = CARTESIAN_POINT ( 'NONE',  ( -14.00000000000000000, 0.000000000000000000, 900.0000000000000000 ) ) ;
#71 = VECTOR ( 'NONE', #201, 1000.000000000000000 ) ;
#72 = ORIENTED_EDGE ( 'NONE', *, *, #6, .T. ) ;
#73 = DIRECTION ( 'NONE',  ( 0.000000000000000000, 0.000000000000000000, 1.000000000000000000 ) ) ;
#74 = CARTESIAN_POINT ( 'NONE',  ( 14.00000000000000000, 1.714505518806294638E-15, 0.000000000000000000 ) ) ;
#75 = CARTESIAN_POINT ( 'NONE',  ( 0.000000000000000000, 0.000000000000000000, 900.0000000000000000 ) ) ;
#76 = LINE ( 'NONE', #112, #48 ) ;
#77 = FILL_AREA_STYLE_COLOUR ( '', #176 ) ;
#78 = STYLED_ITEM ( 'NONE', ( #67 ), #147 ) ;
#79 = DIRECTION ( 'NONE',  ( -1.000000000000000000, 0.000000000000000000, 0.000000000000000000 ) ) ;
#80 = ADVANCED_FACE ( 'NONE', ( #173 ), #171, .T. ) ;
#81 = CARTESIAN_POINT ( 'NONE',  ( 11.00000000000000000, 1.347111479062088405E-15, 900.0000000000000000 ) ) ;
#82 = CIRCLE ( 'NONE', #148, 11.00000000000000000 ) ;
#83 = EDGE_CURVE ( 'NONE', #209, #152, #210, .T. ) ;
#84 = ORIENTED_EDGE ( 'NONE', *, *, #50, .T. ) ;
#85 = ORIENTED_EDGE ( 'NONE', *, *, #83, .T. ) ;
#86 = VERTEX_POINT ( 'NONE', #113 ) ;
#87 = AXIS2_PLACEMENT_3D ( 'NONE', #75, #154, #155 ) ;
#88 = DIRECTION ( 'NONE',  ( -0.000000000000000000, -0.000000000000000000, -1.000000000000000000 ) ) ;
#89 = LINE ( 'NONE', #91, #71 ) ;
#90 = DIRECTION ( 'NONE',  ( 1.000000000000000000, 0.000000000000000000, 0.000000000000000000 ) ) ;
#91 = CARTESIAN_POINT ( 'NONE',  ( 14.00000000000000000, 1.714505518806294638E-15, 900.0000000000000000 ) ) ;
#92 = FACE_OUTER_BOUND ( 'NONE', #54, .T. ) ;
#93 = CIRCLE ( 'NONE', #137, 14.00000000000000000 ) ;
#94 = CARTESIAN_POINT ( 'NONE',  ( 0.000000000000000000, 0.000000000000000000, 900.0000000000000000 ) ) ;
#95 = AXIS2_PLACEMENT_3D ( 'NONE', #64, #142, #205 ) ;
#96 = EDGE_LOOP ( 'NONE', ( #181, #214, #72, #85 ) ) ;
#97 = SHAPE_DEFINITION_REPRESENTATION ( #202, #147 ) ;
#98 = SURFACE_SIDE_STYLE ('',( #160 ) ) ;
#99 = ADVANCED_FACE ( 'NONE', ( #108, #157 ), #174, .F. ) ;
#100 = EDGE_CURVE ( 'NONE', #57, #36, #82, .T. ) ;
#101 = ORIENTED_EDGE ( 'NONE', *, *, #6, .F. ) ;
#102 = CARTESIAN_POINT ( 'NONE',  ( 0.000000000000000000, 0.000000000000000000, 900.0000000000000000 ) ) ;
#103 = UNCERTAINTY_MEASURE_WITH_UNIT (LENGTH_MEASURE( 1.000000000000000082E-05 ), #43, 'distance_accuracy_value', 'NONE');
#104 = ORIENTED_EDGE ( 'NONE', *, *, #12, .F. ) ;
#105 = CIRCLE ( 'NONE', #37, 11.00000000000000000 ) ;
#106 = CARTESIAN_POINT ( 'NONE',  ( 0.000000000000000000, 0.000000000000000000, 0.000000000000000000 ) ) ;
#107 = UNCERTAINTY_MEASURE_WITH_UNIT (LENGTH_MEASURE( 1.000000000000000082E-05 ), #29, 'distance_accuracy_value', 'NONE');
#108 = FACE_OUTER_BOUND ( 'NONE', #213, .T. ) ;
#109 = FACE_OUTER_BOUND ( 'NONE', #55, .T. ) ;
#110 = DIRECTION ( 'NONE',  ( 1.000000000000000000, 0.000000000000000000, 0.000000000000000000 ) ) ;
#111 = PRODUCT_DEFINITION ( 'UNKNOWN', '', #203, #125 ) ;
#112 = CARTESIAN_POINT ( 'NONE',  ( -11.00000000000000000, 0.000000000000000000, 900.0000000000000000 ) ) ;
#113 = CARTESIAN_POINT ( 'NONE',  ( 14.00000000000000000, 1.714505518806294638E-15, 900.0000000000000000 ) ) ;
#114 = MECHANICAL_DESIGN_GEOMETRIC_PRESENTATION_REPRESENTATION (  '', ( #26 ), #53 ) ;
#115 = DIRECTION ( 'NONE',  ( 1.000000000000000000, 0.000000000000000000, 0.000000000000000000 ) ) ;
#116 =( LENGTH_UNIT ( ) NAMED_UNIT ( * ) SI_UNIT ( .MILLI., .METRE. ) );
#117 = CARTESIAN_POINT ( 'NONE',  ( -14.00000000000000000, 0.000000000000000000, 0.000000000000000000 ) ) ;
#118 = FACE_OUTER_BOUND ( 'NONE', #167, .T. ) ;
#119 = ORIENTED_EDGE ( 'NONE', *, *, #211, .T. ) ;
#120 = VERTEX_POINT ( 'NONE', #46 ) ;
#121 = DIRECTION ( 'NONE',  ( 1.000000000000000000, 0.000000000000000000, -0.000000000000000000 ) ) ;
#122 = CIRCLE ( 'NONE', #14, 14.00000000000000000 ) ;
#123 = EDGE_CURVE ( 'NONE', #169, #57, #76, .T. ) ;
#124 = EDGE_CURVE ( 'NONE', #86, #152, #89, .T. ) ;
#125 = PRODUCT_DEFINITION_CONTEXT ( 'detailed design', #179, 'design' ) ;
#126 = SURFACE_STYLE_USAGE ( .BOTH. , #61 ) ;
#127 = COLOUR_RGB ( '',0.7921568627450980005, 0.8196078431372548767, 0.9333333333333333481 ) ;
#128 = DIRECTION ( 'NONE',  ( 0.000000000000000000, 0.000000000000000000, 1.000000000000000000 ) ) ;
#129 = CARTESIAN_POINT ( 'NONE',  ( 0.000000000000000000, 0.000000000000000000, 0.000000000000000000 ) ) ;
#130 = FILL_AREA_STYLE_COLOUR ( '', #127 ) ;
#131 = AXIS2_PLACEMENT_3D ( 'NONE', #102, #2, #121 ) ;
#132 = ORIENTED_EDGE ( 'NONE', *, *, #66, .T. ) ;
#133 = CYLINDRICAL_SURFACE ( 'NONE', #175, 11.00000000000000000 ) ;
#134 = ORIENTED_EDGE ( 'NONE', *, *, #100, .F. ) ;
#135 = DIRECTION ( 'NONE',  ( 1.000000000000000000, 0.000000000000000000, 0.000000000000000000 ) ) ;
#136 = DIRECTION ( 'NONE',  ( 0.000000000000000000, 0.000000000000000000, 1.000000000000000000 ) ) ;
#137 = AXIS2_PLACEMENT_3D ( 'NONE', #106, #177, #158 ) ;
#138 = CARTESIAN_POINT ( 'NONE',  ( -14.00000000000000000, 0.000000000000000000, 900.0000000000000000 ) ) ;
#139 = DIRECTION ( 'NONE',  ( -0.000000000000000000, -0.000000000000000000, -1.000000000000000000 ) ) ;
#140 =( GEOMETRIC_REPRESENTATION_CONTEXT ( 3 ) GLOBAL_UNCERTAINTY_ASSIGNED_CONTEXT ( ( #107 ) ) GLOBAL_UNIT_ASSIGNED_CONTEXT ( ( #29, #191, #51 ) ) REPRESENTATION_CONTEXT ( 'NONE', 'WORKASPACE' ) );
#141 = AXIS2_PLACEMENT_3D ( 'NONE', #8, #128, #110 ) ;
#142 = DIRECTION ( 'NONE',  ( 0.000000000000000000, 0.000000000000000000, 1.000000000000000000 ) ) ;
#143 = ORIENTED_EDGE ( 'NONE', *, *, #193, .F. ) ;
#144 =( NAMED_UNIT ( * ) SI_UNIT ( $, .STERADIAN. ) SOLID_ANGLE_UNIT ( ) );
#145 = ADVANCED_FACE ( 'NONE', ( #109 ), #23, .T. ) ;
#146 = MECHANICAL_DESIGN_GEOMETRIC_PRESENTATION_REPRESENTATION (  '', ( #78 ), #140 ) ;
#147 = ADVANCED_BREP_SHAPE_REPRESENTATION ( '¦¨þ¯øû¹', ( #166, #59 ), #63 ) ;
#148 = AXIS2_PLACEMENT_3D ( 'NONE', #129, #24, #90 ) ;
#149 = DIRECTION ( 'NONE',  ( -1.000000000000000000, 0.000000000000000000, 0.000000000000000000 ) ) ;
#150 = VERTEX_POINT ( 'NONE', #138 ) ;
#151 = ORIENTED_EDGE ( 'NONE', *, *, #193, .T. ) ;
#152 = VERTEX_POINT ( 'NONE', #74 ) ;
#153 = DIRECTION ( 'NONE',  ( 0.000000000000000000, 0.000000000000000000, 1.000000000000000000 ) ) ;
#154 = DIRECTION ( 'NONE',  ( -0.000000000000000000, -0.000000000000000000, -1.000000000000000000 ) ) ;
#155 = DIRECTION ( 'NONE',  ( -1.000000000000000000, 0.000000000000000000, 0.000000000000000000 ) ) ;
#156 =( NAMED_UNIT ( * ) SI_UNIT ( $, .STERADIAN. ) SOLID_ANGLE_UNIT ( ) );
#157 = FACE_BOUND ( 'NONE', #170, .T. ) ;
#158 = DIRECTION ( 'NONE',  ( 1.000000000000000000, 0.000000000000000000, 0.000000000000000000 ) ) ;
#159 = AXIS2_PLACEMENT_3D ( 'NONE', #42, #47, #79 ) ;
#160 = SURFACE_STYLE_FILL_AREA ( #208 ) ;
#161 = DIRECTION ( 'NONE',  ( 0.000000000000000000, 0.000000000000000000, 1.000000000000000000 ) ) ;
#162 = PRODUCT_CONTEXT ( 'NONE', #34, 'mechanical' ) ;
#163 = DIRECTION ( 'NONE',  ( 0.000000000000000000, 0.000000000000000000, 1.000000000000000000 ) ) ;
#164 = ORIENTED_EDGE ( 'NONE', *, *, #211, .F. ) ;
#165 = ORIENTED_EDGE ( 'NONE', *, *, #100, .T. ) ;
#166 = MANIFOLD_SOLID_BREP ( 'Áîáûøêà-Âûòÿíóòü1', #68 ) ;
#167 = EDGE_LOOP ( 'NONE', ( #196, #151 ) ) ;
#168 = ORIENTED_EDGE ( 'NONE', *, *, #123, .T. ) ;
#169 = VERTEX_POINT ( 'NONE', #186 ) ;
#170 = EDGE_LOOP ( 'NONE', ( #165, #132 ) ) ;
#171 = CYLINDRICAL_SURFACE ( 'NONE', #159, 14.00000000000000000 ) ;
#172 = CARTESIAN_POINT ( 'NONE',  ( 0.000000000000000000, 0.000000000000000000, 900.0000000000000000 ) ) ;
#173 = FACE_OUTER_BOUND ( 'NONE', #96, .T. ) ;
#174 = PLANE ( 'NONE',  #184 ) ;
#175 = AXIS2_PLACEMENT_3D ( 'NONE', #35, #183, #149 ) ;
#176 = COLOUR_RGB ( '',0.7921568627450980005, 0.8196078431372548767, 0.9333333333333333481 ) ;
#177 = DIRECTION ( 'NONE',  ( 0.000000000000000000, 0.000000000000000000, 1.000000000000000000 ) ) ;
#178 = FACE_BOUND ( 'NONE', #16, .T. ) ;
#179 = APPLICATION_CONTEXT ( 'automotive_design' ) ;
#180 = FACE_OUTER_BOUND ( 'NONE', #1, .T. ) ;
#181 = ORIENTED_EDGE ( 'NONE', *, *, #124, .F. ) ;
#182 = CIRCLE ( 'NONE', #18, 11.00000000000000000 ) ;
#183 = DIRECTION ( 'NONE',  ( -0.000000000000000000, -0.000000000000000000, -1.000000000000000000 ) ) ;
#184 = AXIS2_PLACEMENT_3D ( 'NONE', #189, #60, #4 ) ;
#185 =( NAMED_UNIT ( * ) PLANE_ANGLE_UNIT ( ) SI_UNIT ( $, .RADIAN. ) );
#186 = CARTESIAN_POINT ( 'NONE',  ( -11.00000000000000000, 0.000000000000000000, 900.0000000000000000 ) ) ;
#187 = CARTESIAN_POINT ( 'NONE',  ( 0.000000000000000000, 0.000000000000000000, 900.0000000000000000 ) ) ;
#188 = PRODUCT_RELATED_PRODUCT_CATEGORY ( 'part', '', ( #9 ) ) ;
#189 = CARTESIAN_POINT ( 'NONE',  ( 0.000000000000000000, 0.000000000000000000, 0.000000000000000000 ) ) ;
#190 = SURFACE_STYLE_USAGE ( .BOTH. , #98 ) ;
#191 =( NAMED_UNIT ( * ) PLANE_ANGLE_UNIT ( ) SI_UNIT ( $, .RADIAN. ) );
#192 = VECTOR ( 'NONE', #88, 1000.000000000000000 ) ;
#193 = EDGE_CURVE ( 'NONE', #86, #150, #45, .T. ) ;
#194 = CARTESIAN_POINT ( 'NONE',  ( 11.00000000000000000, 1.347111479062088405E-15, 0.000000000000000000 ) ) ;
#195 = DIRECTION ( 'NONE',  ( 1.000000000000000000, 0.000000000000000000, 0.000000000000000000 ) ) ;
#196 = ORIENTED_EDGE ( 'NONE', *, *, #40, .T. ) ;
#197 = ORIENTED_EDGE ( 'NONE', *, *, #83, .F. ) ;
#198 = SURFACE_STYLE_FILL_AREA ( #62 ) ;
#199 = DIRECTION ( 'NONE',  ( -1.000000000000000000, 0.000000000000000000, 0.000000000000000000 ) ) ;
#200 = PRESENTATION_STYLE_ASSIGNMENT (( #126 ) ) ;
#201 = DIRECTION ( 'NONE',  ( -0.000000000000000000, -0.000000000000000000, -1.000000000000000000 ) ) ;
#202 = PRODUCT_DEFINITION_SHAPE ( 'NONE', 'NONE',  #111 ) ;
#203 = PRODUCT_DEFINITION_FORMATION_WITH_SPECIFIED_SOURCE ( 'ANY', '', #9, .NOT_KNOWN. ) ;
#204 = EDGE_CURVE ( 'NONE', #169, #120, #105, .T. ) ;
#205 = DIRECTION ( 'NONE',  ( 1.000000000000000000, 0.000000000000000000, 0.000000000000000000 ) ) ;
#206 =( NAMED_UNIT ( * ) PLANE_ANGLE_UNIT ( ) SI_UNIT ( $, .RADIAN. ) );
#207 = LINE ( 'NONE', #81, #69 ) ;
#208 = FILL_AREA_STYLE ('',( #130 ) ) ;
#209 = VERTEX_POINT ( 'NONE', #117 ) ;
#210 = CIRCLE ( 'NONE', #95, 14.00000000000000000 ) ;
#211 = EDGE_CURVE ( 'NONE', #120, #36, #207, .T. ) ;
#212 = ORIENTED_EDGE ( 'NONE', *, *, #123, .F. ) ;
#213 = EDGE_LOOP ( 'NONE', ( #197, #41 ) ) ;
#214 = ORIENTED_EDGE ( 'NONE', *, *, #40, .F. ) ;
ENDSEC;
END-ISO-10303-21;
